0
SECTION
2
HEADER
9
$INSUNITS
70
4
9
$ACADVER
1
AC1014
9
$HANDSEED
5
FFFF
0
ENDSEC
0
SECTION
2
TABLES
0
TABLE
2
VPORT
5
8
100
AcDbSymbolTable
0
ENDTAB
0
TABLE
2
LTYPE
5
5
100
AcDbSymbolTable
0
LTYPE
5
14
100
AcDbSymbolTableRecord
100
AcDbLinetypeTableRecord
2
BYBLOCK
70
0
0
LTYPE
5
15
100
AcDbSymbolTableRecord
100
AcDbLinetypeTableRecord
2
BYLAYER
70
0
0
ENDTAB
0
TABLE
2
LAYER
5
2
100
AcDbSymbolTable
70
2
0
LAYER
5
50
100
AcDbSymbolTableRecord
100
AcDbLayerTableRecord
2
0
70
0
6
CONTINUOUS
0
ENDTAB
0
TABLE
2
STYLE
5
3
100
AcDbSymbolTable
70
1
0
STYLE
5
11
100
AcDbSymbolTableRecord
100
AcDbTextStyleTableRecord
2
STANDARD
70
0
0
ENDTAB
0
TABLE
2
VIEW
5
6
100
AcDbSymbolTable
70
0
0
ENDTAB
0
TABLE
2
UCS
5
7
100
AcDbSymbolTable
70
0
0
ENDTAB
0
TABLE
2
APPID
5
9
100
AcDbSymbolTable
70
2
0
APPID
5
12
100
AcDbSymbolTableRecord
100
AcDbRegAppTableRecord
2
ACAD
70
0
0
ENDTAB
0
TABLE
2
DIMSTYLE
5
A
100
AcDbSymbolTable
70
1
0
ENDTAB
0
TABLE
2
BLOCK_RECORD
5
1
100
AcDbSymbolTable
70
1
0
BLOCK_RECORD
5
1F
100
AcDbSymbolTableRecord
100
AcDbBlockTableRecord
2
*MODEL_SPACE
0
BLOCK_RECORD
5
1B
100
AcDbSymbolTableRecord
100
AcDbBlockTableRecord
2
*PAPER_SPACE
0
ENDTAB
0
ENDSEC
0
SECTION
2
BLOCKS
0
BLOCK
5
20
100
AcDbEntity
100
AcDbBlockBegin
2
*MODEL_SPACE
0
ENDBLK
5
21
100
AcDbEntity
100
AcDbBlockEnd
0
BLOCK
5
1C
100
AcDbEntity
100
AcDbBlockBegin
2
*PAPER_SPACE
0
ENDBLK
5
1D
100
AcDbEntity
100
AcDbBlockEnd
0
ENDSEC
0
SECTION
2
ENTITIES
0
LWPOLYLINE
5
100
100
AcDbEntity
8
OUTER_PROFILES
100
AcDbPolyline
90
38
70
1
43
0.0
10
27.051724137931032
20
20.379310344827584
10
25.499999999999989
20
18.75
10
24
20
18.75
10
23.999999999999993
20
24.712388980384699
10
23.999999999999989
20
45.29598111538597
42
-0.21342176528338869
10
25.666666666666664
20
49.022761077885619
42
0.44721359549995843
10
25.666666666666661
20
68.402016882883828
42
-0.21342176528338846
10
23.999999999999993
20
72.128796845383476
10
23.999999999999993
20
72.375754040489909
10
23.407996825025663
20
75.046107796041355
10
13.566155311134789
20
89.101714136776422
10
12.999999999999927
20
91.772067892327584
10
12.999999999999956
20
92.411266368063878
42
-0.21342176528338774
10
14.666666666666625
20
96.138046330563498
42
2.6180339887498936
10
-2.666666666666714
20
96.138046330563554
42
-0.21342176528338694
10
-1.0000000000000675
20
92.41126636806392
10
-1.0000000000000497
20
91.772067892327584
10
-0.40799682502581369
20
89.101714136776422
10
9.4338446888650296
20
75.046107796041355
10
9.9999999999999964
20
72.375754040489909
10
9.9999999999999982
20
72.128796845383448
42
-0.21342176528338846
10
8.333333333333325
20
68.4020168828838
42
0.44721359549995771
10
8.3333333333333268
20
49.022761077885619
42
-0.21342176528338846
10
9.9999999999999947
20
45.29598111538597
10
10
20
24.712388980384699
10
10
20
18.75
10
8.5
20
18.75
10
6.9482758620689662
20
20.379310344827584
42
0.20525770195463641
10
5.4999999999999982
20
21
10
1.2246467991473535e-16
20
21
42
0.41421356237309503
10
-2.0000000000000004
20
19
10
-2.0000000000000004
20
1.9999999999999973
42
0.41421356237309503
10
0
20
-3.0531133177191805e-15
10
42.999999999999986
20
-4.4408920985006262e-15
42
0.41421356237309587
10
45
20
1.9999999999999942
10
45
20
18.999999999999996
42
0.41421356237309404
10
43.000000000000007
20
21
10
28.500000000000007
20
21
42
0.20525770195463677
0
LWPOLYLINE
5
101
100
AcDbEntity
8
INTERIOR_PROFILES
100
AcDbPolyline
90
4
70
1
43
0.0
10
33.000000000000007
20
11.099999999999998
42
-0.99999999999999989
10
33.000000000000007
20
6.8999999999999986
10
30
20
6.8999999999999995
42
-0.99999999999999989
10
30.000000000000004
20
11.099999999999998
0
LWPOLYLINE
5
102
100
AcDbEntity
8
INTERIOR_PROFILES
100
AcDbPolyline
90
4
70
1
43
0.0
10
10
20
6.8999999999999968
42
-0.99999999999999989
10
10
20
11.099999999999998
10
13.000000000000004
20
11.099999999999998
42
-0.99999999999999989
10
13.000000000000004
20
6.8999999999999968
0
CIRCLE
5
103
100
AcDbEntity
8
INTERIOR_PROFILES
100
AcDbCircle
10
-17
20
58.712388980384716
30
0
40
6.7499999999999982
210
0
220
0
230
-1
0
CIRCLE
5
104
100
AcDbEntity
8
INTERIOR_PROFILES
100
AcDbCircle
10
5.9999999999999698
20
105.82767423306262
30
0
40
6.75
210
0
220
0
230
1
0
LINE
5
105
100
AcDbEntity
8
BEND
100
AcDbLine
10
10
20
22.356194490192351
30
-4.3755716517882679e-15
11
24
21
22.356194490192351
31
-4.3755716517882679e-15
0
LINE
5
106
100
AcDbEntity
8
BEND
100
AcDbLine
10
9.7169223444325166
20
73.710930918265632
30
-1.8341703600290305e-13
11
23.703998412512838
21
73.710930918265632
31
-3.296897329642385e-14
0
LINE
5
107
100
AcDbEntity
8
BEND
100
AcDbLine
10
13.283077655567343
20
90.43689101455206
30
-5.3570631119532886e-14
11
-0.7039984125129406
21
90.43689101455206
31
-2.3708844927238516e-13
0
LINE
5
108
100
AcDbEntity
8
BEND_EXTENT
100
AcDbLine
10
-1.0000000000000497
20
91.772067892327584
30
-5.4123372450476381e-14
11
12.999999999999927
21
91.772067892327584
31
-5.4123372450476381e-14
0
LINE
5
109
100
AcDbEntity
8
BEND_EXTENT
100
AcDbLine
10
9.4338446888650296
20
75.046107796041355
30
-4.4408920985006262e-14
11
23.407996825025663
21
75.046107796041355
31
-4.4408920985006262e-14
0
LINE
5
110
100
AcDbEntity
8
BEND_EXTENT
100
AcDbLine
10
13.566155311134789
20
89.101714136776422
30
-3.5527136788005009e-14
11
-0.40799682502581369
21
89.101714136776422
31
-3.5527136788005009e-14
0
LINE
5
111
100
AcDbEntity
8
BEND_EXTENT
100
AcDbLine
10
23.999999999999993
20
72.375754040489909
30
-2.4424906541753444e-14
11
9.9999999999999964
21
72.375754040489909
31
-2.4424906541753444e-14
0
LINE
5
112
100
AcDbEntity
8
BEND_EXTENT
100
AcDbLine
10
10
20
24.712388980384699
30
-8.8817841970012523e-15
11
23.999999999999993
21
24.712388980384699
31
-8.8817841970012523e-15
0
LINE
5
113
100
AcDbEntity
8
BEND_EXTENT
100
AcDbLine
10
23.999999999999993
20
20
30
0
11
10
21
20
31
0
0
ENDSEC
0
SECTION
2
OBJECTS
0
DICTIONARY
5
C
100
AcDbDictionary
3
ACAD_GROUP
350
D
3
ACAD_MLINESTYLE
350
17
0
DICTIONARY
5
D
100
AcDbDictionary
0
DICTIONARY
5
1A
330
C
100
AcDbDictionary
0
DICTIONARY
5
17
100
AcDbDictionary
0
ENDSEC
0
EOF
