0
SECTION
2
HEADER
9
$INSUNITS
70
4
9
$ACADVER
1
AC1014
9
$HANDSEED
5
FFFF
0
ENDSEC
0
SECTION
2
TABLES
0
TABLE
2
VPORT
5
8
100
AcDbSymbolTable
0
ENDTAB
0
TABLE
2
LTYPE
5
5
100
AcDbSymbolTable
0
LTYPE
5
14
100
AcDbSymbolTableRecord
100
AcDbLinetypeTableRecord
2
BYBLOCK
70
0
0
LTYPE
5
15
100
AcDbSymbolTableRecord
100
AcDbLinetypeTableRecord
2
BYLAYER
70
0
0
ENDTAB
0
TABLE
2
LAYER
5
2
100
AcDbSymbolTable
70
2
0
LAYER
5
50
100
AcDbSymbolTableRecord
100
AcDbLayerTableRecord
2
0
70
0
6
CONTINUOUS
0
ENDTAB
0
TABLE
2
STYLE
5
3
100
AcDbSymbolTable
70
1
0
STYLE
5
11
100
AcDbSymbolTableRecord
100
AcDbTextStyleTableRecord
2
STANDARD
70
0
0
ENDTAB
0
TABLE
2
VIEW
5
6
100
AcDbSymbolTable
70
0
0
ENDTAB
0
TABLE
2
UCS
5
7
100
AcDbSymbolTable
70
0
0
ENDTAB
0
TABLE
2
APPID
5
9
100
AcDbSymbolTable
70
2
0
APPID
5
12
100
AcDbSymbolTableRecord
100
AcDbRegAppTableRecord
2
ACAD
70
0
0
ENDTAB
0
TABLE
2
DIMSTYLE
5
A
100
AcDbSymbolTable
70
1
0
ENDTAB
0
TABLE
2
BLOCK_RECORD
5
1
100
AcDbSymbolTable
70
1
0
BLOCK_RECORD
5
1F
100
AcDbSymbolTableRecord
100
AcDbBlockTableRecord
2
*MODEL_SPACE
0
BLOCK_RECORD
5
1B
100
AcDbSymbolTableRecord
100
AcDbBlockTableRecord
2
*PAPER_SPACE
0
ENDTAB
0
ENDSEC
0
SECTION
2
BLOCKS
0
BLOCK
5
20
100
AcDbEntity
100
AcDbBlockBegin
2
*MODEL_SPACE
0
ENDBLK
5
21
100
AcDbEntity
100
AcDbBlockEnd
0
BLOCK
5
1C
100
AcDbEntity
100
AcDbBlockBegin
2
*PAPER_SPACE
0
ENDBLK
5
1D
100
AcDbEntity
100
AcDbBlockEnd
0
ENDSEC
0
SECTION
2
ENTITIES
0
LINE
5
100
100
AcDbEntity
8
OUTER_PROFILES
100
AcDbLine
10
236.29674776902309
20
35.870834875401144
30
0
11
237.29674776902306
21
37.602885682970026
31
0
0
LINE
5
101
100
AcDbEntity
8
OUTER_PROFILES
100
AcDbLine
10
237.29674776902306
20
37.602885682970026
30
0
11
254.86480066023202
21
27.459965617092934
31
0
0
ARC
5
102
100
AcDbEntity
8
OUTER_PROFILES
100
AcDbCircle
10
255.86480066023202
20
29.192016424661826
30
0
40
2.0000000000000222
210
0
220
0
230
1
100
AcDbArc
50
240.00000000000023
51
330.00000000000023
0
LINE
5
103
100
AcDbEntity
8
OUTER_PROFILES
100
AcDbLine
10
257.59685146780089
20
28.192016424661844
30
0
11
260.09685146780089
21
32.522143443584028
31
0
0
ARC
5
104
100
AcDbEntity
8
OUTER_PROFILES
100
AcDbCircle
10
258.36480066023205
20
33.522143443584042
30
0
40
1.9999999999999969
210
-0
220
0
230
1
100
AcDbArc
50
-30.000000000000885
51
59.999999999999872
0
LINE
5
105
100
AcDbEntity
8
OUTER_PROFILES
100
AcDbLine
10
259.36480066023205
20
35.25419425115291
30
0
11
241.79674776902311
21
45.397114317029974
31
0
0
LINE
5
106
100
AcDbEntity
8
OUTER_PROFILES
100
AcDbLine
10
241.79674776902311
20
45.397114317029974
30
0
11
242.79674776902311
21
47.129165124598842
31
0
0
LINE
5
107
100
AcDbEntity
8
OUTER_PROFILES
100
AcDbLine
10
242.79674776902311
20
47.129165124598842
30
0
11
244.16277317280759
21
47.495190528383375
31
0
0
LINE
5
108
100
AcDbEntity
8
OUTER_PROFILES
100
AcDbLine
10
244.16277317280759
20
47.495190528383375
30
0
11
248.45781026706305
21
45.015449705835458
31
0
0
ARC
5
109
100
AcDbEntity
8
OUTER_PROFILES
100
AcDbCircle
10
249.95781026706311
20
47.613525917188753
30
0
40
3.000000000000008
210
0
220
0
230
1
100
AcDbArc
50
239.99999999999886
51
314.17337986812748
0
ARC
5
110
100
AcDbEntity
8
OUTER_PROFILES
100
AcDbCircle
10
276.78584013175396
20
20
30
0
40
35.5
210
0
220
0
230
1
100
AcDbArc
50
123.05573115085413
51
134.17337986812763
0
ARC
5
111
100
AcDbEntity
8
OUTER_PROFILES
100
AcDbCircle
10
255.7858401317539
20
52.268405600525057
30
0
40
2.9999999999999876
210
-0
220
0
230
1
100
AcDbArc
50
-56.944268849145914
51
0
0
LINE
5
112
100
AcDbEntity
8
OUTER_PROFILES
100
AcDbLine
10
258.7858401317539
20
52.268405600525071
30
0
11
258.7858401317539
21
54.5
31
0
0
ARC
5
113
100
AcDbEntity
8
OUTER_PROFILES
100
AcDbCircle
10
255.7858401317539
20
54.5
30
0
40
3.0000000000000071
210
0
220
-0
230
1
100
AcDbArc
50
0
51
90
0
LINE
5
114
100
AcDbEntity
8
OUTER_PROFILES
100
AcDbLine
10
255.7858401317539
20
57.5
30
0
11
242.12209955338383
21
57.500000000000007
31
0
0
ARC
5
115
100
AcDbEntity
8
OUTER_PROFILES
100
AcDbCircle
10
242.12209955338383
20
47.500000000000007
30
0
40
10
210
0
220
-0
230
1
100
AcDbArc
50
90
51
125.83650688862386
0
ARC
5
116
100
AcDbEntity
8
OUTER_PROFILES
100
AcDbCircle
10
188.0000153133025
20
122.44142864257708
30
0
40
82.441428642578458
210
-0
220
0
230
1
100
AcDbArc
50
274.72140642110588
51
305.83650688862383
0
SPLINE
5
117
100
AcDbEntity
8
OUTER_PROFILES
100
AcDbSpline
70
0
71
3
72
8
73
4
74
0
42
0.000000001
43
0.0000000001
44
0.0000000001
40
0.1703539251018088
40
0.1703539251018088
40
0.1703539251018088
40
0.1703539251018088
40
1.1161207609728814
40
1.1161207609728814
40
1.1161207609728814
40
1.1161207609728814
10
194.78584013175865
20
40.27974816948435
30
0
10
192.5287132976228
20
40.093329547064641
30
0
10
190.26921368462507
20
39.999999578498866
30
0
10
187.99999999999994
20
40
30
0
0
LINE
5
118
100
AcDbEntity
8
OUTER_PROFILES
100
AcDbLine
10
187.99999999999997
20
40
30
0
11
165.11269837220806
21
40
31
0
0
ARC
5
119
100
AcDbEntity
8
OUTER_PROFILES
100
AcDbCircle
10
165.11269837220806
20
50
30
0
40
9.9999999999999982
210
0
220
0
230
1
100
AcDbArc
50
224.99999999999977
51
270
0
LINE
5
120
100
AcDbEntity
8
OUTER_PROFILES
100
AcDbLine
10
158.04163056034255
20
42.928932188134546
30
0
11
143.89949493661166
21
57.071067811865461
31
0
0
ARC
5
121
100
AcDbEntity
8
OUTER_PROFILES
100
AcDbCircle
10
-136.82842712474618
20
50
30
0
40
10
210
0
220
0
230
-1
100
AcDbArc
50
90
51
135.00000000000006
0
LINE
5
122
100
AcDbEntity
8
OUTER_PROFILES
100
AcDbLine
10
136.82842712474618
20
60
30
0
11
51.171572875253766
21
60
31
0
0
ARC
5
123
100
AcDbEntity
8
OUTER_PROFILES
100
AcDbCircle
10
-51.171572875253766
20
50
30
0
40
10.000000000000004
210
0
220
0
230
-1
100
AcDbArc
50
44.999999999999922
51
90
0
LINE
5
124
100
AcDbEntity
8
OUTER_PROFILES
100
AcDbLine
10
44.100505063388276
20
57.071067811865468
30
0
11
29.9583694396574
21
42.928932188134532
31
0
0
ARC
5
125
100
AcDbEntity
8
OUTER_PROFILES
100
AcDbCircle
10
22.887301627791921
20
50
30
0
40
10
210
0
220
0
230
1
100
AcDbArc
50
270
51
315.00000000000006
0
LINE
5
126
100
AcDbEntity
8
OUTER_PROFILES
100
AcDbLine
10
22.887301627791917
20
40
30
0
11
0
21
40
31
0
0
SPLINE
5
127
100
AcDbEntity
8
OUTER_PROFILES
100
AcDbSpline
70
0
71
3
72
8
73
4
74
0
42
0.000000001
43
0.0000000001
44
0.0000000001
40
0.1703539251018088
40
0.1703539251018088
40
0.1703539251018088
40
0.1703539251018088
40
1.1161207609728814
40
1.1161207609728814
40
1.1161207609728814
40
1.1161207609728814
10
-6.7858401317586825
20
40.27974816948435
30
0
10
-4.5287132976228506
20
40.093329547064641
30
0
10
-2.2692136846250932
20
39.999999578498866
30
0
10
3.5527136788005009e-14
20
40
30
0
0
ARC
5
128
100
AcDbEntity
8
OUTER_PROFILES
100
AcDbCircle
10
1.5313302519359695e-05
20
122.44142864257708
30
0
40
82.441428642578501
210
-0
220
0
230
-1
100
AcDbArc
50
274.72140642110924
51
305.83650688862383
0
ARC
5
129
100
AcDbEntity
8
OUTER_PROFILES
100
AcDbCircle
10
54.122099553383869
20
47.500000000000007
30
0
40
10
210
0
220
0
230
-1
100
AcDbArc
50
89.999999999999801
51
125.83650688862386
0
LINE
5
130
100
AcDbEntity
8
OUTER_PROFILES
100
AcDbLine
10
-54.122099553383904
20
57.500000000000007
30
0
11
-67.785840131753929
21
57.5
31
0
0
ARC
5
131
100
AcDbEntity
8
OUTER_PROFILES
100
AcDbCircle
10
67.785840131753929
20
54.5
30
0
40
2.9999999999999982
210
0
220
0
230
-1
100
AcDbArc
50
0
51
90
0
LINE
5
132
100
AcDbEntity
8
OUTER_PROFILES
100
AcDbLine
10
-70.785840131753929
20
54.5
30
0
11
-70.785840131753943
21
52.268405600525057
31
0
0
ARC
5
133
100
AcDbEntity
8
OUTER_PROFILES
100
AcDbCircle
10
67.785840131753929
20
52.268405600525057
30
0
40
3
210
-0
220
0
230
-1
100
AcDbArc
50
-56.944268849145566
51
0
0
ARC
5
134
100
AcDbEntity
8
OUTER_PROFILES
100
AcDbCircle
10
88.785840131753986
20
20
30
0
40
35.499999999999986
210
0
220
0
230
-1
100
AcDbArc
50
123.05573115085409
51
134.17337986812763
0
ARC
5
135
100
AcDbEntity
8
OUTER_PROFILES
100
AcDbCircle
10
61.957810267063138
20
47.613525917188753
30
0
40
3.0000000000000009
210
0
220
-0
230
-1
100
AcDbArc
50
239.99999999999883
51
314.17337986812737
0
LINE
5
136
100
AcDbEntity
8
OUTER_PROFILES
100
AcDbLine
10
-60.457810267063081
20
45.015449705835465
30
0
11
-56.162773172807618
21
47.495190528383375
31
0
0
LINE
5
137
100
AcDbEntity
8
OUTER_PROFILES
100
AcDbLine
10
-56.162773172807618
20
47.495190528383375
30
0
11
-54.796747769023142
21
47.129165124598842
31
0
0
LINE
5
138
100
AcDbEntity
8
OUTER_PROFILES
100
AcDbLine
10
-54.796747769023142
20
47.129165124598842
30
0
11
-53.796747769023128
21
45.397114317029974
31
0
0
LINE
5
139
100
AcDbEntity
8
OUTER_PROFILES
100
AcDbLine
10
-53.796747769023128
20
45.397114317029974
30
0
11
-71.364800660232035
21
35.254194251152931
31
0
0
ARC
5
140
100
AcDbEntity
8
OUTER_PROFILES
100
AcDbCircle
10
70.364800660232049
20
33.522143443584042
30
0
40
1.9999999999999969
210
-0
220
0
230
-1
100
AcDbArc
50
-30.000000000000476
51
60.000000000000519
0
LINE
5
141
100
AcDbEntity
8
OUTER_PROFILES
100
AcDbLine
10
-72.096851467800917
20
32.522143443584028
30
0
11
-69.596851467800889
21
28.192016424661837
31
0
0
ARC
5
142
100
AcDbEntity
8
OUTER_PROFILES
100
AcDbCircle
10
67.864800660232049
20
29.192016424661826
30
0
40
1.9999999999999978
210
0
220
-0
230
-1
100
AcDbArc
50
240.00000000000034
51
329.99999999999977
0
LINE
5
143
100
AcDbEntity
8
OUTER_PROFILES
100
AcDbLine
10
-66.864800660232063
20
27.459965617092948
30
0
11
-49.296747769023099
21
37.602885682970026
31
0
0
LINE
5
144
100
AcDbEntity
8
OUTER_PROFILES
100
AcDbLine
10
-49.296747769023099
20
37.602885682970026
30
0
11
-48.296747769023121
21
35.870834875401144
31
0
0
LINE
5
145
100
AcDbEntity
8
OUTER_PROFILES
100
AcDbLine
10
-48.296747769023121
20
35.870834875401144
30
0
11
-48.662773172807583
21
34.504809471616781
31
0
0
LINE
5
146
100
AcDbEntity
8
OUTER_PROFILES
100
AcDbLine
10
-48.662773172807583
20
34.504809471616781
30
0
11
-52.957810267063152
21
32.025068649068828
31
0
0
ARC
5
147
100
AcDbEntity
8
OUTER_PROFILES
100
AcDbCircle
10
51.457810267063095
20
29.426992437715541
30
0
40
3.0000000000000036
210
-0
220
0
230
-1
100
AcDbArc
50
-14.17337986812745
51
59.999999999998785
0
ARC
5
148
100
AcDbEntity
8
OUTER_PROFILES
100
AcDbCircle
10
88.785840131753986
20
20
30
0
40
35.500000000000007
210
0
220
0
230
-1
100
AcDbArc
50
165.82662013187232
51
194.17337986812743
0
ARC
5
149
100
AcDbEntity
8
OUTER_PROFILES
100
AcDbCircle
10
51.45781026706306
20
10.5730075622846
30
0
40
3.0000000000000018
210
-0
220
0
230
-1
100
AcDbArc
50
-60.000000000001101
51
14.173379868127707
0
LINE
5
150
100
AcDbEntity
8
OUTER_PROFILES
100
AcDbLine
10
-52.95781026706301
20
7.9749313509312536
30
0
11
-48.662773172807441
21
5.4951905283834757
31
0
0
LINE
5
151
100
AcDbEntity
8
OUTER_PROFILES
100
AcDbLine
10
-48.662773172807441
20
5.4951905283834757
30
0
11
-48.29674776902305
21
4.1291651245989325
31
0
0
LINE
5
152
100
AcDbEntity
8
OUTER_PROFILES
100
AcDbLine
10
-48.29674776902305
20
4.1291651245989325
30
0
11
-49.296747769023064
21
2.3971143170300646
31
0
0
LINE
5
153
100
AcDbEntity
8
OUTER_PROFILES
100
AcDbLine
10
-49.296747769023064
20
2.3971143170300646
30
0
11
-66.864800660231865
21
12.540034382907045
31
0
0
ARC
5
154
100
AcDbEntity
8
OUTER_PROFILES
100
AcDbCircle
10
67.86480066023185
20
10.807983575338156
30
0
40
2.0000000000000009
210
0
220
0
230
-1
100
AcDbArc
50
29.999999999999609
51
119.99999999999949
0
LINE
5
155
100
AcDbEntity
8
OUTER_PROFILES
100
AcDbLine
10
-69.596851467800732
20
11.807983575338143
30
0
11
-72.096851467800718
21
7.4778565564159649
31
0
0
ARC
5
156
100
AcDbEntity
8
OUTER_PROFILES
100
AcDbCircle
10
70.364800660231879
20
6.4778565564159862
30
0
40
2
210
-0
220
0
230
-1
100
AcDbArc
50
-60.000000000000441
51
30.000000000000004
0
LINE
5
157
100
AcDbEntity
8
OUTER_PROFILES
100
AcDbLine
10
-71.364800660231865
20
4.7458057488471015
30
0
11
-53.796747769023057
21
-5.3971143170298754
31
0
0
LINE
5
158
100
AcDbEntity
8
OUTER_PROFILES
100
AcDbLine
10
-53.796747769023057
20
-5.3971143170298754
30
0
11
-54.796747769023035
21
-7.1291651245987575
31
0
0
LINE
5
159
100
AcDbEntity
8
OUTER_PROFILES
100
AcDbLine
10
-54.796747769023035
20
-7.1291651245987575
30
0
11
-56.162773172807476
21
-7.4951905283832199
31
0
0
LINE
5
160
100
AcDbEntity
8
OUTER_PROFILES
100
AcDbLine
10
-56.162773172807476
20
-7.4951905283832199
30
0
11
-60.45781026706301
21
-5.0154497058353442
31
0
0
ARC
5
161
100
AcDbEntity
8
OUTER_PROFILES
100
AcDbCircle
10
61.957810267062996
20
-7.6135259171886505
30
0
40
3.0000000000000018
210
0
220
0
230
-1
100
AcDbArc
50
45.826620131872268
51
119.99999999999986
0
ARC
5
162
100
AcDbEntity
8
OUTER_PROFILES
100
AcDbCircle
10
88.785840131753986
20
20
30
0
40
35.500000000000007
210
0
220
-0
230
-1
100
AcDbArc
50
225.82662013187212
51
236.94426884914591
0
ARC
5
163
100
AcDbEntity
8
OUTER_PROFILES
100
AcDbCircle
10
67.785840131753929
20
-12.268405600525067
30
0
40
2.9999999999999982
210
-0
220
0
230
-1
100
AcDbArc
50
0
51
56.944268849145637
0
LINE
5
164
100
AcDbEntity
8
OUTER_PROFILES
100
AcDbLine
10
-70.785840131753929
20
-12.268405600525069
30
0
11
-70.785840131753929
21
-14.5
31
0
0
ARC
5
165
100
AcDbEntity
8
OUTER_PROFILES
100
AcDbCircle
10
67.785840131753929
20
-14.500000000000002
30
0
40
3.0000000000000004
210
-0
220
-0
230
-1
100
AcDbArc
50
-90
51
0
0
LINE
5
166
100
AcDbEntity
8
OUTER_PROFILES
100
AcDbLine
10
-67.785840131753929
20
-17.500000000000004
30
0
11
-54.122084240078934
21
-17.500000000000007
31
0
0
ARC
5
167
100
AcDbEntity
8
OUTER_PROFILES
100
AcDbCircle
10
54.122084240078934
20
-7.5000000000000089
30
0
40
10
210
0
220
-0
230
-1
100
AcDbArc
50
234.16349311137742
51
270
0
ARC
5
168
100
AcDbEntity
8
OUTER_PROFILES
100
AcDbCircle
10
0
20
-82.441428642577051
30
0
40
82.44142864257708
210
0
220
0
230
-1
100
AcDbArc
50
54.163493111377377
51
85.278582900100574
0
SPLINE
5
169
100
AcDbEntity
8
OUTER_PROFILES
100
AcDbSpline
70
0
71
3
72
8
73
4
74
0
42
0.000000001
43
0.0000000001
44
0.0000000001
40
-1.1163427371794472
40
-1.1163427371794472
40
-1.1163427371794472
40
-1.1163427371794472
40
-0.1706747390389145
40
-0.1706747390389145
40
-0.1706747390389145
40
-0.1706747390389145
10
-6.7858401317539574
20
-0.27974943422956144
30
0
10
-4.5207200714006746
20
-0.092670217289401169
30
0
10
-2.2611177506001923
20
4.8176291270702121e-14
30
0
10
1.9539925233402755e-12
20
-5.5532835274707537e-15
30
0
0
LINE
5
170
100
AcDbEntity
8
OUTER_PROFILES
100
AcDbLine
10
1.9540200550543476e-12
20
-5.5606308587814572e-15
30
0
11
187.99999999999801
21
-5.5532835274707537e-15
31
0
0
SPLINE
5
171
100
AcDbEntity
8
OUTER_PROFILES
100
AcDbSpline
70
0
71
3
72
8
73
4
74
0
42
0.000000001
43
0.0000000001
44
0.0000000001
40
-1.1163427371794472
40
-1.1163427371794472
40
-1.1163427371794472
40
-1.1163427371794472
40
-0.1706747390389145
40
-0.1706747390389145
40
-0.1706747390389145
40
-0.1706747390389145
10
194.78584013175393
20
-0.27974943422956144
30
0
10
192.52072007140066
20
-0.092670217289401169
30
0
10
190.26111775060016
20
4.8176291270702121e-14
30
0
10
187.99999999999801
20
-5.5532835274707537e-15
30
0
0
ARC
5
172
100
AcDbEntity
8
OUTER_PROFILES
100
AcDbCircle
10
187.99999999999997
20
-82.441428642577051
30
0
40
82.44142864257708
210
0
220
-0
230
1
100
AcDbArc
50
54.163493111377342
51
85.278582900100574
0
ARC
5
173
100
AcDbEntity
8
OUTER_PROFILES
100
AcDbCircle
10
242.12208424007889
20
-7.5000000000000089
30
0
40
10
210
0
220
0
230
1
100
AcDbArc
50
234.1634931113777
51
269.99999999999983
0
LINE
5
174
100
AcDbEntity
8
OUTER_PROFILES
100
AcDbLine
10
242.12208424007886
20
-17.500000000000007
30
0
11
255.78584013175387
21
-17.500000000000004
31
0
0
ARC
5
175
100
AcDbEntity
8
OUTER_PROFILES
100
AcDbCircle
10
255.7858401317539
20
-14.500000000000002
30
0
40
3.0000000000000004
210
0
220
0
230
1
100
AcDbArc
50
269.99999999999943
51
360
0
LINE
5
176
100
AcDbEntity
8
OUTER_PROFILES
100
AcDbLine
10
258.7858401317539
20
-14.500000000000007
30
0
11
258.7858401317539
21
-12.268405600525075
31
0
0
ARC
5
177
100
AcDbEntity
8
OUTER_PROFILES
100
AcDbCircle
10
255.7858401317539
20
-12.268405600525067
30
0
40
3.0000000000000071
210
-0
220
0
230
1
100
AcDbArc
50
0
51
56.944268849145047
0
ARC
5
178
100
AcDbEntity
8
OUTER_PROFILES
100
AcDbCircle
10
276.78584013175396
20
20
30
0
40
35.499999999999993
210
0
220
0
230
1
100
AcDbArc
50
225.82662013187218
51
236.94426884914597
0
ARC
5
179
100
AcDbEntity
8
OUTER_PROFILES
100
AcDbCircle
10
249.95781026706297
20
-7.6135259171886505
30
0
40
3.0000000000000169
210
0
220
-0
230
1
100
AcDbArc
50
45.826620131871508
51
119.99999999999949
0
LINE
5
180
100
AcDbEntity
8
OUTER_PROFILES
100
AcDbLine
10
248.457810267063
20
-5.0154497058353282
30
0
11
244.16277317280745
21
-7.4951905283832199
31
0
0
LINE
5
181
100
AcDbEntity
8
OUTER_PROFILES
100
AcDbLine
10
244.16277317280745
20
-7.4951905283832199
30
0
11
242.796747769023
21
-7.1291651245987575
31
0
0
LINE
5
182
100
AcDbEntity
8
OUTER_PROFILES
100
AcDbLine
10
242.796747769023
20
-7.1291651245987575
30
0
11
241.79674776902303
21
-5.3971143170298763
31
0
0
LINE
5
183
100
AcDbEntity
8
OUTER_PROFILES
100
AcDbLine
10
241.79674776902303
20
-5.3971143170298763
30
0
11
259.36480066023182
21
4.7458057488471184
31
0
0
ARC
5
184
100
AcDbEntity
8
OUTER_PROFILES
100
AcDbCircle
10
258.36480066023182
20
6.4778565564159862
30
0
40
1.9999999999999813
210
-0
220
0
230
1
100
AcDbArc
50
-59.999999999999879
51
29.999999999998998
0
LINE
5
185
100
AcDbEntity
8
OUTER_PROFILES
100
AcDbLine
10
260.09685146780078
20
7.4778565564159898
30
0
11
257.59685146780072
21
11.807983575338152
31
0
0
ARC
5
186
100
AcDbEntity
8
OUTER_PROFILES
100
AcDbCircle
10
255.86480066023182
20
10.807983575338156
30
0
40
2.0000000000000209
210
0
220
-0
230
1
100
AcDbArc
50
29.999999999999638
51
120.00000000000078
0
LINE
5
187
100
AcDbEntity
8
OUTER_PROFILES
100
AcDbLine
10
254.86480066023179
20
12.540034382907027
30
0
11
237.29674776902303
21
2.3971143170300646
31
0
0
LINE
5
188
100
AcDbEntity
8
OUTER_PROFILES
100
AcDbLine
10
237.29674776902303
20
2.3971143170300646
30
0
11
236.29674776902303
21
4.1291651245989325
31
0
0
LINE
5
189
100
AcDbEntity
8
OUTER_PROFILES
100
AcDbLine
10
236.29674776902303
20
4.1291651245989325
30
0
11
236.66277317280742
21
5.4951905283834757
31
0
0
LINE
5
190
100
AcDbEntity
8
OUTER_PROFILES
100
AcDbLine
10
236.66277317280742
20
5.4951905283834757
30
0
11
240.957810267063
21
7.9749313509312545
31
0
0
ARC
5
191
100
AcDbEntity
8
OUTER_PROFILES
100
AcDbCircle
10
239.45781026706302
20
10.5730075622846
30
0
40
3.0000000000000004
210
-0
220
0
230
1
100
AcDbArc
50
-60.000000000000746
51
14.173379868127553
0
ARC
5
192
100
AcDbEntity
8
OUTER_PROFILES
100
AcDbCircle
10
276.78584013175396
20
20
30
0
40
35.500000000000014
210
0
220
0
230
1
100
AcDbArc
50
165.82662013187229
51
194.17337986812743
0
ARC
5
193
100
AcDbEntity
8
OUTER_PROFILES
100
AcDbCircle
10
239.45781026706305
20
29.426992437715541
30
0
40
2.9999999999999987
210
-0
220
0
230
1
100
AcDbArc
50
-14.173379868126991
51
59.999999999999396
0
LINE
5
194
100
AcDbEntity
8
OUTER_PROFILES
100
AcDbLine
10
240.95781026706308
20
32.025068649068842
30
0
11
236.66277317280756
21
34.504809471616781
31
0
0
LINE
5
195
100
AcDbEntity
8
OUTER_PROFILES
100
AcDbLine
10
236.66277317280756
20
34.504809471616781
30
0
11
236.29674776902309
21
35.870834875401144
31
0
0
LWPOLYLINE
5
196
100
AcDbEntity
8
INTERIOR_PROFILES
100
AcDbPolyline
90
14
70
1
43
0.0
10
218.30034707755124
20
4.8930244470289708
42
0.47694286222543897
10
222.26041914472066
20
7.3543991004204781
42
-0.2348235617251449
10
223.73715460007591
20
9.5795865497669084
10
229.97010751040551
20
13.178183590391939
10
232.78583985940176
20
14.803846787649579
42
0.57735026919120502
10
232.78584040410607
20
25.196151633119655
10
229.97010751040563
20
26.821816409608125
10
223.73715169098676
20
30.420415129796623
42
-0.23482322195174155
10
222.26041671593975
20
32.64559874490871
42
0.47694240821167211
10
218.30034567166604
20
35.106969752314484
42
-0.031292324803221708
10
207.16391446174282
20
32.008233968777397
42
0.3542920534475516
10
204.78584013175396
20
29.073407149188029
10
204.78584013175393
20
10.926589605733252
42
0.35429200729826105
10
207.16391398040145
20
7.991762888145999
42
-0.031292331667055688
0
LWPOLYLINE
5
197
100
AcDbEntity
8
INTERIOR_PROFILES
100
AcDbPolyline
90
4
70
1
43
0.0
10
51.999999999999993
20
15.100000000000007
10
59.999999999999986
20
15.100000000000007
42
-0.99999999999999989
10
59.999999999999986
20
8.8999999999999986
10
51.999999999999993
20
8.9000000000000021
42
-0.99999999999999989
0
LWPOLYLINE
5
198
100
AcDbEntity
8
INTERIOR_PROFILES
100
AcDbPolyline
90
4
70
1
43
0.0
10
127.99999999999999
20
51.099999999999994
10
136
20
51.099999999999994
42
-0.99999999999999989
10
136
20
44.900000000000006
10
127.99999999999999
20
44.900000000000006
42
-0.99999999999999989
0
LWPOLYLINE
5
199
100
AcDbEntity
8
INTERIOR_PROFILES
100
AcDbPolyline
90
4
70
1
43
0.0
10
51.999999999999972
20
44.900000000000006
42
-0.99999999999999989
10
51.999999999999993
20
51.099999999999994
10
59.999999999999986
20
51.099999999999994
42
-0.99999999999999989
10
59.999999999999986
20
44.900000000000006
0
LWPOLYLINE
5
200
100
AcDbEntity
8
INTERIOR_PROFILES
100
AcDbPolyline
90
4
70
1
43
0.0
10
136
20
15.099999999999987
42
-0.99999999999999989
10
136
20
8.8999999999999986
10
127.99999999999999
20
8.9000000000000234
42
-0.99999999999999989
10
127.99999999999999
20
15.099999999999982
0
LWPOLYLINE
5
201
100
AcDbEntity
8
INTERIOR_PROFILES
100
AcDbPolyline
90
14
70
1
43
0.0
10
-30.30034707755128
20
4.8930244470289708
42
-0.47694286222543897
10
-34.260419144720693
20
7.3543991004204781
42
0.23482356172514457
10
-35.737154600075939
20
9.5795865497669048
10
-41.970107510405541
20
13.178183590391956
42
-0.29145481898248415
10
-43.458709528220894
20
16.037522082049644
42
0.043626589231877289
10
-43.458709528221036
20
23.962477917950331
42
-0.29145481898249476
10
-41.970107510405647
20
26.821816409608115
10
-35.737151690986835
20
30.420415129796631
42
0.23482322195174479
10
-34.260416715939755
20
32.645598744908717
42
-0.47694240821167561
10
-30.300345671666026
20
35.10696975231447
42
0.031292324803221257
10
-19.16391446174288
20
32.008233968777439
42
-0.35429205344755527
10
-16.785840131753961
20
29.073407149188029
10
-16.785840131753964
20
10.926589605733243
42
-0.35429200729826027
10
-19.163913980401475
20
7.991762888145999
42
0.031292331667055688
0
LINE
5
202
100
AcDbEntity
8
BEND
100
AcDbLine
10
241.53414084475926
20
35.156425650031494
30
7.121990912101704e-14
11
246.03414084475929
21
42.950654284091492
31
6.5444279700422923e-14
0
LINE
5
203
100
AcDbEntity
8
BEND
100
AcDbLine
10
246.03414084475907
20
-2.9506542840913963
30
-1.0603428487748614e-15
11
241.53414084475912
21
4.84357434996853
31
-2.8559462333702295e-14
0
LINE
5
204
100
AcDbEntity
8
BEND
100
AcDbLine
10
-58.034140844759321
20
42.950654284091492
30
6.5444279700422923e-14
11
-53.534140844759293
21
35.156425650031494
31
7.1219909121017027e-14
0
LINE
5
205
100
AcDbEntity
8
BEND
100
AcDbLine
10
-3.3929200658769787
20
40.069847657571572
30
6.441916687656849e-15
11
-3.3929200658769787
21
-0.06984828833294543
31
-1.5047529137564039e-15
0
LINE
5
206
100
AcDbEntity
8
BEND
100
AcDbLine
10
-53.534140844759115
20
4.8435743499685193
30
-2.8559462333702245e-14
11
-58.034140844759072
21
-2.9506542840914154
31
-1.0603428487749295e-15
0
LINE
5
207
100
AcDbEntity
8
BEND
100
AcDbLine
10
191.39292006587695
20
-0.06984828833294697
30
-1.5047529137564086e-15
11
191.39292006587692
21
40.069847657571572
31
6.4419166876566155e-15
0
LINE
5
208
100
AcDbEntity
8
BEND_EXTENT
100
AcDbLine
10
244.47249581481873
20
33.459965617092948
30
7.1054273576010019e-14
11
248.97249581481876
21
41.254194251152938
31
1.2434497875801753e-13
0
LINE
5
209
100
AcDbEntity
8
BEND_EXTENT
100
AcDbLine
10
248.97249581481856
20
-1.2541942511528781
30
2.2204460492503131e-14
11
244.47249581481856
21
6.5400343829070273
31
-1.7763568394002505e-14
0
LINE
5
210
100
AcDbEntity
8
BEND_EXTENT
100
AcDbLine
10
194.78584013175393
20
-0.27974943422954368
30
0
11
194.78584013175393
21
40.279748169483952
31
0
0
LINE
5
211
100
AcDbEntity
8
BEND_EXTENT
100
AcDbLine
10
187.99999999999997
20
0
30
0
11
187.99999999999997
21
39.999999999999993
31
0
0
LINE
5
212
100
AcDbEntity
8
BEND_EXTENT
100
AcDbLine
10
243.09578587469974
20
44.647114317029981
30
0
11
238.59578587469974
21
36.852885682970026
31
-1.7763568394002505e-14
0
LINE
5
213
100
AcDbEntity
8
BEND_EXTENT
100
AcDbLine
10
238.59578587469969
20
3.1471143170300619
30
-1.7763568394002505e-14
11
243.09578587469969
21
-4.647114317029879
31
0
0
LINE
5
214
100
AcDbEntity
8
BEND_EXTENT
100
AcDbLine
10
0
20
40
30
0
11
0
21
0
31
0
0
LINE
5
215
100
AcDbEntity
8
BEND_EXTENT
100
AcDbLine
10
-56.472495814818764
20
33.459965617092948
30
7.1054273576010019e-14
11
-60.972495814818792
21
41.254194251152938
31
1.2434497875801753e-13
0
LINE
5
216
100
AcDbEntity
8
BEND_EXTENT
100
AcDbLine
10
-60.972495814818579
20
-1.2541942511528781
30
2.2204460492503131e-14
11
-56.472495814818586
21
6.5400343829070273
31
-1.7763568394002505e-14
0
LINE
5
217
100
AcDbEntity
8
BEND_EXTENT
100
AcDbLine
10
-6.7858401317539574
20
-0.27974943422954368
30
0
11
-6.7858401317539574
21
40.279748169483952
31
0
0
LINE
5
218
100
AcDbEntity
8
BEND_EXTENT
100
AcDbLine
10
-55.095785874699779
20
44.647114317029981
30
0
11
-50.595785874699786
21
36.852885682970026
31
-1.7763568394002505e-14
0
LINE
5
219
100
AcDbEntity
8
BEND_EXTENT
100
AcDbLine
10
-50.595785874699715
20
3.1471143170300619
30
-1.7763568394002505e-14
11
-55.095785874699708
21
-4.647114317029879
31
0
0
ENDSEC
0
SECTION
2
OBJECTS
0
DICTIONARY
5
C
100
AcDbDictionary
3
ACAD_GROUP
350
D
3
ACAD_MLINESTYLE
350
17
0
DICTIONARY
5
D
100
AcDbDictionary
0
DICTIONARY
5
1A
330
C
100
AcDbDictionary
0
DICTIONARY
5
17
100
AcDbDictionary
0
ENDSEC
0
EOF
